ISO-10303-21;
HEADER;
FILE_DESCRIPTION (( 'STEP AP203' ),
    '1' );
FILE_NAME ('QB-CTZHWP-25.4-780-M.STEP',
    '2020-12-24T01:36:44',
    ( '' ),
    ( '' ),
    'SwSTEP 2.0',
    'SolidWorks 2020',
    '' );
FILE_SCHEMA (( 'CONFIG_CONTROL_DESIGN' ));
ENDSEC;

DATA;
#1 = ORIENTED_EDGE ( 'NONE', *, *, #96, .F. ) ;
#2 = VERTEX_POINT ( 'NONE', #44 ) ;
#3 = CARTESIAN_POINT ( 'NONE',  ( 3.000000000000000000, 0.000000000000000000, 0.000000000000000000 ) ) ;
#4 = AXIS2_PLACEMENT_3D ( 'NONE', #3, #77, #139 ) ;
#5 = PERSON_AND_ORGANIZATION_ROLE ( 'design_owner' ) ;
#6 = CC_DESIGN_PERSON_AND_ORGANIZATION_ASSIGNMENT ( #73, #5, ( #134 ) ) ;
#7 = LINE ( 'NONE', #155, #146 ) ;
#8 = CC_DESIGN_PERSON_AND_ORGANIZATION_ASSIGNMENT ( #142, #14, ( #35 ) ) ;
#9 = CC_DESIGN_APPROVAL ( #38, ( #43 ) ) ;
#10 = AXIS2_PLACEMENT_3D ( 'NONE', #39, #87, #138 ) ;
#11 = MANIFOLD_SOLID_BREP ( 'Ðý×', #153 ) ;
#12 = COORDINATED_UNIVERSAL_TIME_OFFSET ( 8, 0, .AHEAD. ) ;
#13 = PERSON_AND_ORGANIZATION ( #124, #119 ) ;
#14 = PERSON_AND_ORGANIZATION_ROLE ( 'classification_officer' ) ;
#15 = APPROVAL_STATUS ( 'not_yet_approved' ) ;
#16 = EDGE_CURVE ( 'NONE', #20, #85, #92, .T. ) ;
#17 = VERTEX_POINT ( 'NONE', #70 ) ;
#18 = LOCAL_TIME ( 9, 36, 44.00000000000000000, #170 ) ;
#19 = EDGE_LOOP ( 'NONE', ( #57, #33, #136, #1 ) ) ;
#20 = VERTEX_POINT ( 'NONE', #122 ) ;
#21 = EDGE_CURVE ( 'NONE', #85, #17, #27, .T. ) ;
#22 = DIRECTION ( 'NONE',  ( 0.000000000000000000, 0.000000000000000000, -1.000000000000000000 ) ) ;
#23 = EDGE_CURVE ( 'NONE', #20, #2, #111, .T. ) ;
#24 = DIRECTION ( 'NONE',  ( 1.000000000000000000, 0.000000000000000000, 0.000000000000000000 ) ) ;
#25 = CC_DESIGN_PERSON_AND_ORGANIZATION_ASSIGNMENT ( #90, #131, ( #135 ) ) ;
#26 = DIRECTION ( 'NONE',  ( -1.000000000000000000, -0.000000000000000000, -0.000000000000000000 ) ) ;
#27 = CIRCLE ( 'NONE', #143, 15.00000000000000000 ) ;
#28 = CALENDAR_DATE ( 2020, 24, 12 ) ;
#29 = PERSON_AND_ORGANIZATION_ROLE ( 'creator' ) ;
#30 = ADVANCED_BREP_SHAPE_REPRESENTATION ( 'QB-CTZHWP-25.4-780-M', ( #11, #31 ), #54 ) ;
#31 = AXIS2_PLACEMENT_3D ( 'NONE', #75, #127, #24 ) ;
#32 = ORIENTED_EDGE ( 'NONE', *, *, #23, .T. ) ;
#33 = ORIENTED_EDGE ( 'NONE', *, *, #16, .T. ) ;
#34 = DIRECTION ( 'NONE',  ( 0.000000000000000000, 0.000000000000000000, 1.000000000000000000 ) ) ;
#35 = SECURITY_CLASSIFICATION ( '', '', #103 ) ;
#36 = FACE_OUTER_BOUND ( 'NONE', #19, .T. ) ;
#37 = CC_DESIGN_APPROVAL ( #156, ( #35 ) ) ;
#38 = APPROVAL ( #15, 'UNSPECIFIED' ) ;
#39 = CARTESIAN_POINT ( 'NONE',  ( -3.000000000000000000, 0.000000000000000000, 0.000000000000000000 ) ) ;
#40 = CALENDAR_DATE ( 2020, 24, 12 ) ;
#41 = CIRCLE ( 'NONE', #4, 15.00000000000000000 ) ;
#42 = APPROVAL_DATE_TIME ( #51, #164 ) ;
#43 = PRODUCT_DEFINITION ( 'UNKNOWN', '', #135, #78 ) ;
#44 = CARTESIAN_POINT ( 'NONE',  ( 3.000000000000000000, 0.000000000000000000, 15.00000000000000000 ) ) ;
#45 = CARTESIAN_POINT ( 'NONE',  ( 3.000000000000000000, 0.000000000000000000, 0.000000000000000000 ) ) ;
#46 = ORIENTED_EDGE ( 'NONE', *, *, #23, .F. ) ;
#47 = APPLICATION_PROTOCOL_DEFINITION ( 'international standard', 'config_control_design', 1994, #61 ) ;
#48 = DIRECTION ( 'NONE',  ( -1.000000000000000000, -0.000000000000000000, -0.000000000000000000 ) ) ;
#49 = PLANE ( 'NONE',  #112 ) ;
#50 = PERSON_AND_ORGANIZATION ( #124, #119 ) ;
#51 = DATE_AND_TIME ( #66, #64 ) ;
#52 = DATE_TIME_ROLE ( 'creation_date' ) ;
#53 = CC_DESIGN_DATE_AND_TIME_ASSIGNMENT ( #172, #52, ( #43 ) ) ;
#54 =( GEOMETRIC_REPRESENTATION_CONTEXT ( 3 ) GLOBAL_UNCERTAINTY_ASSIGNED_CONTEXT ( ( #163 ) ) GLOBAL_UNIT_ASSIGNED_CONTEXT ( ( #72, #116, #100 ) ) REPRESENTATION_CONTEXT ( 'NONE', 'WORKASPACE' ) );
#55 = DIRECTION ( 'NONE',  ( -1.000000000000000000, -0.000000000000000000, -0.000000000000000000 ) ) ;
#56 = ADVANCED_FACE ( 'NONE', ( #36 ), #63, .T. ) ;
#57 = ORIENTED_EDGE ( 'NONE', *, *, #160, .T. ) ;
#58 = FACE_OUTER_BOUND ( 'NONE', #165, .T. ) ;
#59 = APPROVAL_PERSON_ORGANIZATION ( #132, #156, #159 ) ;
#60 = APPLICATION_PROTOCOL_DEFINITION ( 'international standard', 'config_control_design', 1994, #123 ) ;
#61 = APPLICATION_CONTEXT ( 'configuration controlled 3d designs of mechanical parts and assemblies' ) ;
#62 = FACE_OUTER_BOUND ( 'NONE', #82, .T. ) ;
#63 = CYLINDRICAL_SURFACE ( 'NONE', #101, 15.00000000000000000 ) ;
#64 = LOCAL_TIME ( 9, 36, 44.00000000000000000, #169 ) ;
#65 = DATE_AND_TIME ( #121, #173 ) ;
#66 = CALENDAR_DATE ( 2020, 24, 12 ) ;
#67 = AXIS2_PLACEMENT_3D ( 'NONE', #99, #141, #76 ) ;
#68 = ADVANCED_FACE ( 'NONE', ( #58 ), #88, .T. ) ;
#69 = ORIENTED_EDGE ( 'NONE', *, *, #98, .T. ) ;
#70 = CARTESIAN_POINT ( 'NONE',  ( -3.000000000000000000, 0.000000000000000000, 15.00000000000000000 ) ) ;
#71 = ORIENTED_EDGE ( 'NONE', *, *, #160, .F. ) ;
#72 =( LENGTH_UNIT ( ) NAMED_UNIT ( * ) SI_UNIT ( .MILLI., .METRE. ) );
#73 = PERSON_AND_ORGANIZATION ( #124, #119 ) ;
#74 = APPROVAL_PERSON_ORGANIZATION ( #154, #38, #130 ) ;
#75 = CARTESIAN_POINT ( 'NONE',  ( 0.000000000000000000, 0.000000000000000000, 0.000000000000000000 ) ) ;
#76 = DIRECTION ( 'NONE',  ( -0.000000000000000000, 0.000000000000000000, 1.000000000000000000 ) ) ;
#77 = DIRECTION ( 'NONE',  ( -1.000000000000000000, -0.000000000000000000, -0.000000000000000000 ) ) ;
#78 = DESIGN_CONTEXT ( 'detailed design', #123, 'design' ) ;
#79 = APPROVAL_DATE_TIME ( #65, #38 ) ;
#80 = SHAPE_DEFINITION_REPRESENTATION ( #148, #30 ) ;
#81 = CALENDAR_DATE ( 2020, 24, 12 ) ;
#82 = EDGE_LOOP ( 'NONE', ( #71, #46 ) ) ;
#83 = CARTESIAN_POINT ( 'NONE',  ( -1.614212418857619014, 1.836970198721029589E-15, -15.00000000000000000 ) ) ;
#84 = ORIENTED_EDGE ( 'NONE', *, *, #16, .F. ) ;
#85 = VERTEX_POINT ( 'NONE', #129 ) ;
#86 = CC_DESIGN_PERSON_AND_ORGANIZATION_ASSIGNMENT ( #13, #29, ( #43 ) ) ;
#87 = DIRECTION ( 'NONE',  ( -1.000000000000000000, -0.000000000000000000, -0.000000000000000000 ) ) ;
#88 = CYLINDRICAL_SURFACE ( 'NONE', #174, 15.00000000000000000 ) ;
#89 = CARTESIAN_POINT ( 'NONE',  ( -3.000000000000000888, 12.69999999999999929, 0.000000000000000000 ) ) ;
#90 = PERSON_AND_ORGANIZATION ( #124, #119 ) ;
#91 = APPROVAL_STATUS ( 'not_yet_approved' ) ;
#92 = LINE ( 'NONE', #83, #97 ) ;
#93 = DIRECTION ( 'NONE',  ( -1.000000000000000000, -0.000000000000000000, -0.000000000000000000 ) ) ;
#94 = DIRECTION ( 'NONE',  ( -1.000000000000000000, -0.000000000000000000, -0.000000000000000000 ) ) ;
#95 = CIRCLE ( 'NONE', #10, 15.00000000000000000 ) ;
#96 = EDGE_CURVE ( 'NONE', #2, #17, #7, .T. ) ;
#97 = VECTOR ( 'NONE', #94, 1000.000000000000000 ) ;
#98 = EDGE_CURVE ( 'NONE', #17, #85, #95, .T. ) ;
#99 = CARTESIAN_POINT ( 'NONE',  ( 3.000000000000000888, 12.69999999999999929, 0.000000000000000000 ) ) ;
#100 =( NAMED_UNIT ( * ) SI_UNIT ( $, .STERADIAN. ) SOLID_ANGLE_UNIT ( ) );
#101 = AXIS2_PLACEMENT_3D ( 'NONE', #168, #150, #140 ) ;
#102 = ADVANCED_FACE ( 'NONE', ( #113 ), #49, .F. ) ;
#103 = SECURITY_CLASSIFICATION_LEVEL ( 'unclassified' ) ;
#104 = CC_DESIGN_SECURITY_CLASSIFICATION ( #35, ( #135 ) ) ;
#105 = AXIS2_PLACEMENT_3D ( 'NONE', #45, #93, #34 ) ;
#106 = PERSON_AND_ORGANIZATION_ROLE ( 'design_supplier' ) ;
#107 = DATE_TIME_ROLE ( 'classification_date' ) ;
#108 = LOCAL_TIME ( 9, 36, 44.00000000000000000, #118 ) ;
#109 = ORIENTED_EDGE ( 'NONE', *, *, #96, .T. ) ;
#110 = DIRECTION ( 'NONE',  ( 0.000000000000000000, 0.000000000000000000, 1.000000000000000000 ) ) ;
#111 = CIRCLE ( 'NONE', #105, 15.00000000000000000 ) ;
#112 = AXIS2_PLACEMENT_3D ( 'NONE', #89, #152, #22 ) ;
#113 = FACE_OUTER_BOUND ( 'NONE', #162, .T. ) ;
#114 = CARTESIAN_POINT ( 'NONE',  ( -1.614212418857619014, 0.000000000000000000, 0.000000000000000000 ) ) ;
#115 = LOCAL_TIME ( 9, 36, 44.00000000000000000, #144 ) ;
#116 =( NAMED_UNIT ( * ) PLANE_ANGLE_UNIT ( ) SI_UNIT ( $, .RADIAN. ) );
#117 = PERSON_AND_ORGANIZATION ( #124, #119 ) ;
#118 = COORDINATED_UNIVERSAL_TIME_OFFSET ( 8, 0, .AHEAD. ) ;
#119 = ORGANIZATION ( 'UNSPECIFIED', 'UNSPECIFIED', '' ) ;
#120 = APPROVAL_STATUS ( 'not_yet_approved' ) ;
#121 = CALENDAR_DATE ( 2020, 24, 12 ) ;
#122 = CARTESIAN_POINT ( 'NONE',  ( 3.000000000000000000, 1.836970198721029589E-15, -15.00000000000000000 ) ) ;
#123 = APPLICATION_CONTEXT ( 'configuration controlled 3d designs of mechanical parts and assemblies' ) ;
#124 = PERSON ( 'UNSPECIFIED', 'UNSPECIFIED', 'UNSPECIFIED', ('UNSPECIFIED'), ('UNSPECIFIED'), ('UNSPECIFIED') ) ;
#125 = PRODUCT_RELATED_PRODUCT_CATEGORY ( 'detail', '', ( #134 ) ) ;
#126 = MECHANICAL_CONTEXT ( 'NONE', #61, 'mechanical' ) ;
#127 = DIRECTION ( 'NONE',  ( 0.000000000000000000, 0.000000000000000000, 1.000000000000000000 ) ) ;
#128 = DIRECTION ( 'NONE',  ( 0.000000000000000000, 0.000000000000000000, 1.000000000000000000 ) ) ;
#129 = CARTESIAN_POINT ( 'NONE',  ( -3.000000000000000000, 1.836970198721029589E-15, -15.00000000000000000 ) ) ;
#130 = APPROVAL_ROLE ( '' ) ;
#131 = PERSON_AND_ORGANIZATION_ROLE ( 'creator' ) ;
#132 = PERSON_AND_ORGANIZATION ( #124, #119 ) ;
#133 = APPROVAL_PERSON_ORGANIZATION ( #50, #164, #171 ) ;
#134 = PRODUCT ( 'QB-CTZHWP-25.4-780-M', 'QB-CTZHWP-25.4-780-M', '', ( #126 ) ) ;
#135 = PRODUCT_DEFINITION_FORMATION_WITH_SPECIFIED_SOURCE ( 'ANY', '', #134, .NOT_KNOWN. ) ;
#136 = ORIENTED_EDGE ( 'NONE', *, *, #98, .F. ) ;
#137 = ORIENTED_EDGE ( 'NONE', *, *, #21, .T. ) ;
#138 = DIRECTION ( 'NONE',  ( 0.000000000000000000, 0.000000000000000000, 1.000000000000000000 ) ) ;
#139 = DIRECTION ( 'NONE',  ( 0.000000000000000000, 0.000000000000000000, 1.000000000000000000 ) ) ;
#140 = DIRECTION ( 'NONE',  ( 0.000000000000000000, 0.000000000000000000, 1.000000000000000000 ) ) ;
#141 = DIRECTION ( 'NONE',  ( -1.000000000000000000, 0.000000000000000000, -0.000000000000000000 ) ) ;
#142 = PERSON_AND_ORGANIZATION ( #124, #119 ) ;
#143 = AXIS2_PLACEMENT_3D ( 'NONE', #175, #55, #110 ) ;
#144 = COORDINATED_UNIVERSAL_TIME_OFFSET ( 8, 0, .AHEAD. ) ;
#145 = DATE_AND_TIME ( #40, #18 ) ;
#146 = VECTOR ( 'NONE', #48, 1000.000000000000000 ) ;
#147 = ORIENTED_EDGE ( 'NONE', *, *, #21, .F. ) ;
#148 = PRODUCT_DEFINITION_SHAPE ( 'NONE', 'NONE',  #43 ) ;
#149 = CC_DESIGN_DATE_AND_TIME_ASSIGNMENT ( #157, #107, ( #35 ) ) ;
#150 = DIRECTION ( 'NONE',  ( -1.000000000000000000, -0.000000000000000000, -0.000000000000000000 ) ) ;
#151 = ADVANCED_FACE ( 'NONE', ( #62 ), #167, .F. ) ;
#152 = DIRECTION ( 'NONE',  ( 1.000000000000000000, 0.000000000000000000, 0.000000000000000000 ) ) ;
#153 = CLOSED_SHELL ( 'NONE', ( #56, #151, #68, #102 ) ) ;
#154 = PERSON_AND_ORGANIZATION ( #124, #119 ) ;
#155 = CARTESIAN_POINT ( 'NONE',  ( -1.614212418857619014, 0.000000000000000000, 15.00000000000000000 ) ) ;
#156 = APPROVAL ( #91, 'UNSPECIFIED' ) ;
#157 = DATE_AND_TIME ( #28, #108 ) ;
#158 = APPROVAL_DATE_TIME ( #145, #156 ) ;
#159 = APPROVAL_ROLE ( '' ) ;
#160 = EDGE_CURVE ( 'NONE', #2, #20, #41, .T. ) ;
#161 = CC_DESIGN_APPROVAL ( #164, ( #135 ) ) ;
#162 = EDGE_LOOP ( 'NONE', ( #69, #137 ) ) ;
#163 = UNCERTAINTY_MEASURE_WITH_UNIT (LENGTH_MEASURE( 1.000000000000000082E-05 ), #72, 'distance_accuracy_value', 'NONE');
#164 = APPROVAL ( #120, 'UNSPECIFIED' ) ;
#165 = EDGE_LOOP ( 'NONE', ( #84, #32, #109, #147 ) ) ;
#166 = CC_DESIGN_PERSON_AND_ORGANIZATION_ASSIGNMENT ( #117, #106, ( #135 ) ) ;
#167 = PLANE ( 'NONE',  #67 ) ;
#168 = CARTESIAN_POINT ( 'NONE',  ( -1.614212418857619014, 0.000000000000000000, 0.000000000000000000 ) ) ;
#169 = COORDINATED_UNIVERSAL_TIME_OFFSET ( 8, 0, .AHEAD. ) ;
#170 = COORDINATED_UNIVERSAL_TIME_OFFSET ( 8, 0, .AHEAD. ) ;
#171 = APPROVAL_ROLE ( '' ) ;
#172 = DATE_AND_TIME ( #81, #115 ) ;
#173 = LOCAL_TIME ( 9, 36, 44.00000000000000000, #12 ) ;
#174 = AXIS2_PLACEMENT_3D ( 'NONE', #114, #26, #128 ) ;
#175 = CARTESIAN_POINT ( 'NONE',  ( -3.000000000000000000, 0.000000000000000000, 0.000000000000000000 ) ) ;
ENDSEC;
END-ISO-10303-21;
